Аккорды, табулатуры и тексты песен

Танцы Минус - Не современно


Solo:             B#                    F#m                  A                  D
E-------------------------------------------------------------------------------------
B-----------------2---------------------2--------------------2------------------------
G-----------------2-----2--1------------2-----2--1-----------2------------------------
D----------2--4-----4---------4--2--4-----4--------4--2------------------2------------
A---4--4----------------------------------------------------4-----4--4--4-----4--2----
E-------------------------------------------------------------------------------------


E--------------------------------------------------------------------------------------
B-----------------2----------------------2---------------------2-----------------------
G-----------------2-----2--1------------2-----2--1-----------2-------------------------
D----------2--4-----4---------4--2--4-----4--------4--2------------------2-------------
A---4--4----------------------------------------------------4-----4--4--4-----4--2-----
E--------------------------------------------------------------------------------------  
 

   B#
1.Ты звонишь мне каждый день,                                                                    
F#m   
Я не знаю, как мне быть,
A
Я не знаю, как мне дать тебе понять,
          D
Что я уже не тот.

Раньше я тебя любил,
Но сердце больше не поет
И с момента нашей первой встречи
Скоро будет целый год.

Припев:  (играется  вместе с  Solo)
B#                 F#m               A        D
      Ты выглядишь так не современно рядом со мной,
B#                 F#m               A        D
      Ты выглядишь так не современно рядом со мной,
B#                 F#m               A        D
      Ты выглядишь так не современно рядом со мной,
B#                 F#m               A        D
      Ты выглядишь так не современно.


2. Я же говорил тебе,
Что так уже ходить нельзя,
Но ты не понимаешь ничего
И ничего не хочешь менять.

Я учил тебя целый год,
Тратил время целый год,
Ты думала, что я шучу
И ничего не хочешь понять.


Припев: (играется  без  Solo)
Ты выглядишь так не современно рядом со мной,
Ты выглядишь так не современно рядом со мной,
Ты выглядишь так не современно рядом со мной,
Ты выглядишь так не современно.

Припев: (играется  вместе с  Solo)
Мы выглядим так не современно рядом с тобой,
Мы выглядим так не современно рядом.
Мы выглядим так не современно рядом с тобой,
Ты выглядишь слишком современно


Не уверен в аккорде B#. На всякий напишу:
E--2----
B--4----
G--4----
D--4----
A--2----
E--2----




Оставить комментарий