Аккорды, табулатуры и тексты песен

Пугачева - Этот мир


Табы прислал: denx a.k.a. dj vitl, denx@newmail.ru
Куплет:
     Am                                                                   
E||----------------------|----------------------|--0--0--------0--1----|
B||--------------0--1----|--1--0--------0--1----|-----------1----------|
G||-----2-----2----------|--------0--2----------|--------2-------------|
D||--2-----2-------------|----------------------|----------------------|
A||----------------------|----------------------|----------------------|
E||----------------------|----------------------|----------------------|


                                                                    
  |--0-------------0-----|----------------------|----------------------|
  |-----3h---1--3--------|--------------0--1----|--1--0--------0--1----|
  |----------------------|-----2-----2----------|--------0--2----------|
  |----------------------|--2-----2-------------|----------------------|
  |----------------------|----------------------|----------------------|
  |----------------------|----------------------|----------------------|


                                              
  |--0--0--------0--1----|---------------------|
  |-----------1----------|---------------------|
  |--------2-------------|--2--1-------1--2t---|
  |----------------------|----------4----------|
  |----------------------|---------------------|
  |----------------------|---------------------|

Припев:
                                                                
  |-----------------|------------------------|-----------------|
  |--8----6--5------|--5--3--5--3--1----5----|--3-------1------|
  |-----------------|------------------------|-------4---------|
  |-----------------|------------------------|-----------------|
  |-----------------|------------------------|-----------------|
  |-----------------|------------------------|-----------------|


                                                                 
  |---------------------|--3----1--0------|--0-----0----------0----|
  |--1------------------|-----------------|-----3-----3--1---------|
  |-----4--2--1--2------|--0--------------|------------------------|
  |---------------------|----------2------|-----0--2--0-------2----|
  |---------------------|-----------------|------------------------|
  |---------------------|-----------------|------------------------|


           C                            
|-----------------|-------------------||
|--3-------1------|--1----------------||
|-------4---------|-----4--2--1--2----||
|-----------------|-------------------||
|----------3------|-----2--------0----||
|-----------------|-----------4-------||



Am               Dm
За то, что только раз
G7          C
В году бывает май,
Am          Dm           C
За блеклую зарю ненастного дня
  Am         Dm
Кого угодно ты
        G7  C
На свете обвиняй,
  Am    Dm
Но только не меня,
  E7       Dm
Прошу - не меня.

E7    Am    G7      C
Этот мир придуман не нами,
E7    Am    E7      Am
Этот мир придуман не мной.
G7    C     E7      Am
Этот мир придуман не нами,
E7    Am    E7      Am
Этот мир придуман не мной.

Am         Dm
Придумано не мной,
G7               C
Что мчится день за днем,
Am           Dm           C
То радость, то печаль кому-то неся.
  Am       Dm
А мир устроен так,
    G7          C
Что все возможно в нем,
  Am       Dm      E7      Dm
Но после ничего исправить нельзя.


E7    Am    G7      C
Этот мир придуман не нами,
E7    Am    E7      Am
Этот мир придуман не мной.
G7    C     E7      Am
Этот мир придуман не нами,
E7    Am    E7      Am
Этот мир придуман не мной.


Am             Dm
Один лишь способ есть
 G7               C
Нам справиться с судьбой,
  Am          Dm             C
Один есть только путь в мелькании дней.
  Am        Dm
Пусть тучи разогнать
   G7           C
Нам трудно над землей,
  Am      Dm        E7         Dm
Но можем мы любить друг друга сильней.


E7    Am    G7      C
Этот мир придуман не нами,
E7    Am    E7      Am
Этот мир придуман не мной.
G7    C     E7      Am
Этот мир придуман не нами,
E7    Am    E7      Am
Этот мир придуман не мной.


E7    Am    G7      C
Этот мир придуман не нами,
E7    Am    E7      Am
Этот мир придуман не мной.
G7    C     E7      Am
Этот мир придуман не нами,
E7   Am     E7     Am     Am
Этот мир придуман не мной.





Оставить комментарий