Аккорды, табулатуры и тексты песен

Король и Шут - Утопленник


Соло между 2 и 3 куплетом
                                                                      
E||------------|------------|------------|--------------|------------|
B||--3----1----|------------|---------0--|--------------|--3----1----|
G||------------|--2------0--|--2---------|--2--0-----0--|------------|
D||------------|------------|------------|--------2-----|------------|
A||------------|------------|------------|--------------|------------|
E||------------|------------|------------|--------------|------------|


                                                                                
------------|------------|--------------|------------|------------|------------|
------------|---------0--|--------------|--3----1----|------------|---------0--|
--2------0--|--2---------|--2--0-----0--|------------|--2------0--|--2---------|
------------|------------|--------2-----|------------|------------|------------|
------------|------------|--------------|------------|------------|------------|
------------|------------|--------------|------------|------------|------------|


                                                 
--------------|-----------|----------|----------|
--------------|-----------|--0-------|--0--1----|
--2--0-----0--|--2-----2--|-------2--|----------|
--------2-----|-----3-----|----------|----------|
--------------|-----------|----------|----------|
--------------|-----------|----------|----------|


                                                                
-----0----------------0------------0--|------------0--5--3--5--|
--------3----1--0--1--------1---------|-----1------------------|
--2----------------------2------------|--2---------------------|
--------------------------------------|------------------------|
--------------------------------------|------------------------|
--------------------------------------|------------------------|


                                                               
--7--8--7--8--10--12--10--8--|--3--------5----3----2----3--2--|
-----------------------------|--------------------------------|
-----------------------------|--------------------------------|
-----------------------------|--------------------------------|
-----------------------------|--------------------------------|
-----------------------------|--------------------------------|


                                                         
--0---------14----15--14--|--------10----8--10--8--7----|
-------3------------------|--17-------------------------|
--------------------------|-----------------------------|
--------------------------|-----------------------------|
--------------------------|-----------------------------|
--------------------------|-----------------------------|


                                                                           
--8--7--5--------12--15--|--12--15--17----------------|------------------||
-------------------------|----------------------------|------------------||
-------------------------|----------------------------|------------------||
-------------------------|----------------------------|------------------||
-------------------------|----------------------------|------------------||
-------------------------|----------------------------|------------------||




Оставить комментарий