Аккорды, табулатуры и тексты песен

Тальков - Летний дождь


Рекомендую сначала прослушать песню
    Dm                  G 
e|--1---0---|----1----|----1----1|---1----
h|--------3-|--3--3-3-|----------|-3--3-3-
g|----2--2--|-2-2--2--|-2-3--2-3-|0-0--0--  
D|--0---0-0-|---------|----------|--------    
A|----------|---------|----------|--------
E|----------|---------|3--------3|--------
   C      C             F       A 
e|----------|---0-----|-----1-3-0|---0----
h|-5--3---1-|-1--1-1--|----------|-2--2-2-
g|---0--0---|0-0--0---|--1-2-----|2-2--2-- 
D|----------|---------|----------|--------
A|-3--3---3-|---------|---------0|--------
E|----------|---------|-1--------|--------

    Dm                  G           A
e|--1---0---|----1----|----1----1-3-0-|---0----
h|--------3-|--3--3-3-|---------------|-2--2-2-
g|----2--2--|-2-2--2--|-2-3--2-3------|2-2--2--  
D|--0---0-0-|---------|---------------|--------  
A|----------|---------|-------------0-|--------
E|----------|---------|3--------3-----|--------


   A         Dm     
e|-----1-3-0|----1----|------1----
h|---2------|--3--3-3-|----3--3-3-
g|--2-2-----|-2-2--2--|---2-2--2-- 
D|---------0|---------|-0---------  
A|-0--------|---------|-----------
E|----------|---------|-----------

играть перебором: бас-3-2-3-1-2-3-2
Gm
Память уже не жалит,
F
Мысли не бьют по рукам,
Em7          A               Dm
Я тебя провожаю к другим берегам.
Gm               C
Ты - перелетная птица,
A                   Dm
Счастья ищешь в пути,
   Gm                A                Dm
Приходишь, чтобы проститься и снова уйти.

Припев:
Gm
Летний дождь, летний дождь
C
Начался сегодня рано.
F
Летний дождь, летний дождь
           A    Dm
Моей души омоет рану.
Gm                      A       Dm
Мы погрустим с ним вдвоем у  слепого окна.
Gm
Летний дождь, летний дождь
C 
Шепчет мне легко и просто,
F
Что придешь, ты придешь,
               A     Dm
Ты придешь, но будет поздно.
Gm                         A
Несвоевременность - вечная драма,
               Dm
Где есть ОН и ОНА.

Ты перестанешь мне снится
Скоро совсем, а потом
Новой мечтой загорится остывший мой дом.
Что от любви любви не ищут-
Ты с годами поймешь,
Ну а сейчас ты не слышишь
И тебя не вернешь.




Оставить комментарий