Аккорды, табулатуры и тексты песен

Tiamat - The Ar


Tiamat: The Ar

Tune down 1 step    

INTRO
|-------------------
|-------------------
|-------------------
|-------------------
|--6-7----6---------
|------------7--9---

MAIN RIFF
|----------------------------------------------------
|----------------------------------------------------
|----------------------------------------------------
|-2--------2-2--2--------2-2-------------------------
|-2--------2-2--2--------2-2--------4-5----4---------
|-0--------0-0--0--------0-0------------------5--7---
         PM---|        PM---|

|----------------------------------------------------
|----------------------------------------------------
|----------------------------------------------------
|-4--------4-4--4--------4-4-------------------------
|-4--------4-4--4--------4-4--------6-7----6---------
|-2--------2-2--2--------2-2------------------7--9---
         PM---|        PM---|





Оставить комментарий