Аккорды, табулатуры и тексты песен

Red Hot Chili Peppers - I Could Have Lied


Acoustic Guitar

E|-------------------------------|-----------------------|
B|-------------------------------|-----------------------|
G|-------------------------------|-----------------------|
D|------0---4----0---4----0---4--|--7---5---4------------|
A|--0h2---2----2---2----2---2----|--0------------5-------|
E|-------------------------------|----------3-------3----|


                                                        
E|-------------------------------|-----------------------|
B|-------------------------------|-----------------------|
G|-------------------------------|-----------------------|
D|------0---4----0---4----0---4--|--7---5---4------------|
A|--0h2---2----2---2----2---2----|--0------------5-------|
E|-------------------------------|----------3-------3----|


                                                        
-------------------------------|-----------------------|
-------------------------------|-----------------------|
-------------------------------|-----------------------|
------0---4----0---4----0---4--|--7---5---4------------|
--0h2---2----2---2----2---2----|--0------------5-------|
-------------------------------|----------3-------3----|


                                                        
-------------------------------|-----------------------|
-------------------------------|-----------------------|
-------------------------------|-----------------------|
------0---4----0---4----0---4--|--7---5---4------------|
--0h2---2----2---2----2---2----|--0------------5-------|
-------------------------------|----------3-------3----|


                                                          
---------------------------------|-----------------------|
------------------------2h3p2----|-----------------------|
---------------------------------|-----------------------|
------0---4----0---4----------4--|--7---5---4------------|
--0h2---2----2---2----2----------|--0------------5-------|
---------------------------------|----------3-------3----|


                                                        
-------------------------------|-----------------------|
-------------------------------|-----------------------|
-------------------------------|-----------------------|
------0---4----0---4----0---4--|--7---5---4------------|
--0h2---2----2---2----2---2----|--0------------5-------|
-------------------------------|----------3-------3----|


                                                   
---------------------------|--0-------0----0------|
--4----4--x-7--7-7--7-7-7--|--0-------0----0------|
--4----4--x-7--7-7--7-7-7--|--6---6---4----4------|
--4----4--x-7--7-7--7-7-7--|--7---7---5----5------|
--2----2--x-5--5-5--5-5-5--|--7---7---5----5------|
---------------------------|--5---5---3----3------|


                                                        
-------------------------------|-----------------------|
-------------------------------|-----------------------|
-------------------------------|-----------------------|
------0---4----0---4----0---4--|--7---5---4------------|
--0h2---2----2---2----2---2----|--0------------5-------|
-------------------------------|----------3-------3----|


                                                        
-------------------------------|-----------------------|
-------------------------------|-----------------------|
-------------------------------|-----------------------|
------0---4----0---4----0---4--|--7---5---4------------|
--0h2---2----2---2----2---2----|--0------------5-------|
-------------------------------|----------3-------3----|


                                                        
-------------------------------|-----------------------|
-------------------------------|-----------------------|
-------------------------------|-----------------------|
------0---4----0---4----0---4--|--7---5---4------------|
--0h2---2----2---2----2---2----|--0------------5-------|
-------------------------------|----------3-------3----|


                                                        
-------------------------------|-----------------------|
-------------------------------|-----------------------|
-------------------------------|-----------------------|
------0---4----0---4----0---4--|--7---5---4------------|
--0h2---2----2---2----2---2----|--0------------5-------|
-------------------------------|----------3-------3----|


                                                        
-------------------------------|-----------------------|
-------------------------------|-----------------------|
-------------------------------|-----------------------|
------0---4----0---4----0---4--|--7---5---4------------|
--0h2---2----2---2----2---2----|--0------------5-------|
-------------------------------|----------3-------3----|


                                                        
-------------------------------|-----------------------|
-------------------------------|-----------------------|
-------------------------------|-----------------------|
------0---4----0---4----0---4--|--7---5---4------------|
--0h2---2----2---2----2---2----|--0------------5-------|
-------------------------------|----------3-------3----|


                                                   
---------------------------|--0-------0----0------|
--4----4--x-7--7-7--7-7-7--|--0-------0----0------|
--4----4--x-7--7-7--7-7-7--|--6---6---4----4------|
--4----4--x-7--7-7--7-7-7--|--7---7---5----5------|
--2----2--x-5--5-5--5-5-5--|--7---7---5----5------|
---------------------------|--5---5---3----3------|


                                                        
-------------------------------|-----------------------|
-------------------------------|-----------------------|
-------------------------------|-----------------------|
------0---4----0---4----0---4--|--7---5---4------------|
--0h2---2----2---2----2---2----|--0------------5-------|
-------------------------------|----------3-------3----|


                                                                           
-----------------------------------------|--------------------------------|
--------------------15--15-15--15-15-15--|--10--10-10-10--8-----8-----8---|
--12-12-12-12-12--x-16--16-16--16-16-16--|--11--11-11-11--9-----9-----9---|
--x--x--x--x--x---x-17--17-17--17-17-17--|--12--12-12-12--10----10----10--|
--14-14-14-14-14--x-x---x--x---x--x--x---|--------------------------------|
--12-12-12-12-12--x-15--15-15--15-15-15--|--10--10-10-10--8-----8-----8---|


                                                                            
---------------------------------------|-----------------------------------|
------------------15--15-15--15-15-15--|--10--10----8---8--8-----8--8------|
--12--12-12-12--x-16--16-16--16-16-16--|--11--11----9---9--9-9---9--9------|
--x---x--x--x---x-17--17-17--17-17-17--|--12--12----10--10---10--10-10-10--|
--14--14-14-14--x-x---x--x---x--x--x---|------------x--------x---------x---|
--12--12-12-12--x-15--15-15--15-15-15--|--10--10----8--------8---------8---|


                                                             
-----------------------------|-----0-0-0-0------------------|
--------3--3-3-2-3-3-3-------|-----2-2-2-2----0-0-----0--0--|
--------4--4-4-4-4-4-4-------|-----2---2-2-0--0-0-----0--0--|
-----4--4----4-4---4---------|--2----------0--0---0-0-0--0--|
--2--2-------------------2-0-|--0----------x------x-x-x-----|
-----------------------------|-------------3------3-3-3-----|


                                                          
------------------------------|---------------------0----|
-----3--3--3-3-2-3---3--------|-------2----0--------0----|
-----4--4--4-4-4-4---4--------|-----2-2-2--0---x-x--0----|
-----4--4------4-4-4----------|--2--2-2-2--0---x-x--0----|
--2--2---------2---2----2-2-0-|--0--0---0--x---x-x--x----|
------------------------------|------------3--------3----|


                                                        
---------------------------|-------0-------------------|
-----3--3--x-2--3--3-------|-------2-------------------|
--4--4--4--x-4--4--4-------|-----2-2-2--0----0--0--0-0-|
--4--4--4--x-4--4--4-------|--2--2---2--0----0--0--0-0-|
--2--2--2--x-2--2------0-2-|--0--0---0--2----2--2--2-2-|
---------------------------|------------3----3--3--3-3-|


                                                                          
-------------------5--------|-------0-----0----0------|------------------|
-----3--3--x-2--3--3--3-----|--2----2-2-2-0----0------|------------------|
--4--4--4--x-4--4--2--2-4-4-|--2--2-2-2-2-4----4------|------------------|
--4--4--4--x-4--4--4--4-4-4-|--2--2---2-2-5----5------|------------------|
--2--2--2--x-2--2-----2-2---|--0----------5----5------|------------------|
----------------------------|-------------3----3------|------------------|


                                                         
------------------|------------------|------------------|
------------------|------------------|------------------|
------------------|------------------|------------------|
------------------|------------------|------------------|
------------------|------------------|------------------|
------------------|------------------|------------------|


                                                        
-------------------------------|-----------------------|
-------------------------------|-----------------------|
-------------------------------|-----------------------|
------0---4----0---4----0---4--|--7---5---4------------|
--0h2---2----2---2----2---2----|--0------------5-------|
-------------------------------|----------3-------3----|


                                                        
-------------------------------|-----------------------|
-------------------------------|-----------------------|
-------------------------------|-----------------------|
------0---4----0---4----0---4--|--7---5---4------------|
--0h2---2----2---2----2---2----|--0------------5-------|
-------------------------------|----------3-------3----|


                                                        
-------------------------------|-----------------------|
-------------------------------|-----------------------|
-------------------------------|-----------------------|
------0---4----0---4----0---4--|--7---5---4------------|
--0h2---2----2---2----2---2----|--0------------5-------|
-------------------------------|----------3-------3----|


                                                        
-------------------------------|-----------------------|
-------------------------------|-----------------------|
-------------------------------|-----------------------|
------0---4----0---4----0---4--|--7---5---4------------|
--0h2---2----2---2----2---2----|--0------------5-------|
-------------------------------|----------3-------3----|


                                                                           
-----------------------------------------|--------------------------------|
--------------------15--15-15--15-15-15--|--10--10-10-10--8-----8-----8---|
--12-12-12-12-12--x-16--16-16--16-16-16--|--11--11-11-11--9-----9-----9---|
--x--x--x--x--x---x-17--17-17--17-17-17--|--12--12-12-12--10----10----10--|
--14-14-14-14-14--x-x---x--x---x--x--x---|--------------------------------|
--12-12-12-12-12--x-15--15-15--15-15-15--|--10--10-10-10--8-----8-----8---|


                                                                            
---------------------------------------|-----------------------------------|
------------------15--15-15--15-15-15--|--10--10----8---8--8-----8--8------|
--12--12-12-12--x-16--16-16--16-16-16--|--11--11----9---9--9-9---9--9------|
--x---x--x--x---x-17--17-17--17-17-17--|--12--12----10--10---10--10-10-10--|
--14--14-14-14--x-x---x--x---x--x--x---|------------x--------x---------x---|
--12--12-12-12--x-15--15-15--15-15-15--|--10--10----8--------8---------8---|


                                                                           
-----------------------------------------|--------------------------------|
--------------------15--15-15--15-15-15--|--10--10-10-10--8-----8-----8---|
--12-12-12-12-12--x-16--16-16--16-16-16--|--11--11-11-11--9-----9-----9---|
--x--x--x--x--x---x-17--17-17--17-17-17--|--12--12-12-12--10----10----10--|
--14-14-14-14-14--x-x---x--x---x--x--x---|--------------------------------|
--12-12-12-12-12--x-15--15-15--15-15-15--|--10--10-10-10--8-----8-----8---|


                                                                            
---------------------------------------|-----------------------------------|
------------------15--15-15--15-15-15--|--10--10----8---8--8-----8--8------|
--12--12-12-12--x-16--16-16--16-16-16--|--11--11----9---9--9-9---9--9------|
--x---x--x--x---x-17--17-17--17-17-17--|--12--12----10--10---10--10-10-10--|
--14--14-14-14--x-x---x--x---x--x--x---|------------x--------x---------x---|
--12--12-12-12--x-15--15-15--15-15-15--|--10--10----8--------8---------8---|


                                               
----------------------------------------------|
------------------15-15-15-15-15-15-15-15-15--|
--12--12-12-12-12-16-16-16-16-16-16-16-16-16--|
--x---x--x--x--x--17-17-17-17-17-17-17-17-17--|
--14--14-14-14-14-x--x--x--x--x--x--x--x--x---|
--12--12-12-12-12-15-15-15-15-15-15-15-15-15--|


                                                   
--------------------------------------------------|
--10-10-10-10-10-10-8--8--8--8--8--8--8--8--8--8--|
--11-11-11-11-11-11-9--9--9--9--9--9--9--9--9--9--|
--12-12-12-12-12-12-10-10-10-10-10-10-10-10-10-10-|
--x--x--x--x--x--x--x--x--x--x--x--x--x--x--x--x--|
--10-10-10-10-10-10-8--8--8--8--8--8--8--8--8--8--|


                                               
----------------------------------------------|
--------------------15-15-15-15-15-15-15--15--|
--12-12-12-12-12-12-16-16-16-16-16-16-16--16--|
--x--x--x--x--x--x--17-17-17-17-17-17-17--17--|
--14-14-14-14-14-14-x--x--x--x--x--x--x---x---|
--12-12-12-12-12-12-15-15-15-15-15-15-15--15--|


                                             
--------------------------------------------|
--10-10-10-10-10-10-8--8--8--8--8--8--8-----|
--11-11-11-11-11-11-9--9--9--9--9--9--9-----|
--12-12-12-12-12-12-10-10-10-10-10-10-10----|
--x--x--x--x--x--x--x--x--x--x--x--x--x-----|
--10-10-10-10-10-10-8--8--8--8--8--8--8-----|


                                                   
--------------------------------------------------|
--12-12-12-12-12-12-15-------15-------15----------|
--12-12-12-12-12-12----16-------16----------16-16-|
--x--x--x--x--x--x--------17----17-17-------17-17-|
--14-14-14-14-14-14-------------x-----------x-----|
--12-12-12-12-12-12-------------15-------15-------|


                                           
------------------------------------------|
--10-------10----10-8-------------8-------|
-----11-------11-11---9----9----9---9-----|
--------12----12-12-----10---10-------10--|
------------------------------------------|
------------------------------------------|


                                                   
--------------------------------------------------|
--12-------12-------15-------15-------15-------15-|
-----12-------12-------16-------16-------16----16-|
--------14-------14-------17-------17-------17----|
--------------------------------------------------|
--------------------------------------------------|


                                                                     
--------------------0--0--0--0--------0--0-----|--3----------------||
--10-------10-10----0--0--0--0--------0--0-----|--3----------------||
-----11----11-11-11-9--9--9--9--------9--9-----|--0----------------||
--------12-------12-10-10-10-10-10----10-10----|--2----------------||
-----------------12-10-10-10-10-10-10-10-10----|--2----------------||
-----------------10-8--8--8--8--8--8--8--8--3b-|--0----------------||




Оставить комментарий