Аккорды, табулатуры и тексты песен

Ленинград - Руки из карманов


Gm
- Руки из карманов, 
Где твой документ?
Сказал мне на Московском 
Один прохожий мент, 
Cm
А я - с баяном:
- А вот он Я!
D
- А это что?
D              Gm
- А это музыка моя!

[соляк] 2 раза
Бла-Бла-Бла (рассказ про Москву)

- Руки из карманов, 
Где твой документ?
Сказал на Ленинградском 
Один прохожий мент, 
А я - с баяном:
- А вот он Я!
- А это что?
- А это музыка моя!

[соляк] 2 раза
Это музыка моЯ!!

Вот так вот!!

Это музыка моЯ!!

[соляк] 2 раза

Соляк играется так:
   Gm
e|--------------------------------------
B|--------------------------------------
G|--------------------------------------
D|--------------------------------------
A|-----5-3--------5-6-5------5-6-5-3-5--
E|-3-6-----6--3-6--------3-6------------
- 2 раза, а потом еще
   Cm
e|--------------------------------------
B|--------------------------------------
G|--------------------------------------
D|-----5-3--------5-6-5--5-5-5-3--------
A|-3-6-----6--3-6----------------6-5-3--
E|--------------------------------------




Оставить комментарий