Аккорды, табулатуры и тексты песен

System Of A Down - Atwa


Intro: Clean guitar
e---------------------------------------------------------
b---------------------------------------------------------
g-----1-----0-----3-----5----6------5-----3------1-----1--
d---------------------------------------------------------
a---------------------------------------------------------
d---3---3-1---1-5---5-6---6-8---8-6----6-5---5-3---3-3----
   |_______________________4x___________________________|

Riff 1: Distortion
e--------------------------------------------
b--------------------------------------------
g--------------------------------------------
d---3-3-3-3-3-3-3x---3-3-3-3-3-3-3x----------
a---3-3-3-3-3-3-3x---3-3-3-3-3-3-3x----------
d---3-3-3-3-3-3-3x---3-3-3-3-3-3-3x----------
   |______________4x_______________|

Verse 1: - Clean guitar
e---------------------------------------------------------
b---------------------------------------------------------
g-----1-----0-----3-----5----6------5-----3------1-----1--
d---------------------------------------------------------
a---------------------------------------------------------
d---3---3-1---1-5---5-6---6-8---8-6----6-5---5-3---3-3----
   |________________________3x___________________________|
   
Riff 1 (again): - Distortion
e--------------------------------------------
b--------------------------------------------
g--------------------------------------------
d---3-3-3-3-3-3-3x---3-3-3-3-3-3-3x----------
a---3-3-3-3-3-3-3x---3-3-3-3-3-3-3x----------
d---3-3-3-3-3-3-3x---3-3-3-3-3-3-3x----------
   |______________4x_______________|

Riff 2: Heavy distortion
e--------------------------------------------
b--------------------------------------------
g--------------------------------------------
d---3--3--3---3/4---3--3--3---3/4------------
a---3--3--3---3/4---3--3--3---3/4------------
d---3--3--3---3/4---3--3--3---3/4------------
   |_____________2x______________|

Solo: (Second time play it with bending and fast picking)
e--------------------------------------------
b--6-6--4-4--8-8--9-9--11-11--9-9--8-8--6-6--
g--------------------------------------------
d--------------------------------------------
a--------------------------------------------
d--------------------------------------------
  |__________________2x____________________|

Riff 3: Heavy distortion
e----------------------------------------------
b----------------------------------------------
g----------------------------------------------
d---3----1-----5-----6-----8-----6----5----3---
a---3----1-----5-----6-----8-----6----5----3---
d---3----1-----5-----6-----8-----6----5----3---
   |__________________2x____________________|

Riff 1: (once again)
e--------------------------------------------
b--------------------------------------------
g--------------------------------------------
d---3-3-3-3-3-3-3x---3-3-3-3-3-3-3x----------
a---3-3-3-3-3-3-3x---3-3-3-3-3-3-3x----------
d---3-3-3-3-3-3-3x---3-3-3-3-3-3-3x----------
   |______________4x_______________|

Riff 2: (ending)
e--------------------------------------------
b--------------------------------------------
g--------------------------------------------
d---3--3--3---3/4---3--3--3---3/4------------
a---3--3--3---3/4---3--3--3---3/4------------
d---3--3--3---3/4---3--3--3---3/4------------
   |_____________2x______________|


Hey you
See me?
Pictures crazy
All the world I´ve seen before me passing by
I´ve got nothing to gain, to lose
All the world I´ve seen before me passing by

You don´t care about how I feel
I don´t feel it any more
You don´t care about how I feel
I don´t feel it any more
You don´t care about how I feel
I don´t feel it any more
You don´t care about how I feel
I don´t feel it any more

Anymore
Nananana nananana nanana

Hey you or me
Not so pretty
All the world I´ve seen before me passing by
Silent my voice
I´ve got no choice
All the world I´ve seen before me passing by

You don´t care about how I feel
I don´t feel it anymore
You don´t care about how I feel
I don´t feel it anymore
You don´t care about how I feel
I don´t feel it anymore
You don´t care about how I feel
I don´t feel it anymore

I don´t see
Anymore
I don´t hear
Anymore
I don´t speak
Anymore
I don´t feel

Nananana nananana nanana
Nananana nananana nanana

Hey you
See me?
Pictures crazy
All the world I´ve seen before me passing by
I´ve got nothing to gain to lose
All the world I´ve seen before me passing by

You don´t care about how I feel
I don´t feel it anymore
You don´t care about how I feel
I don´t feel it anymore
You don´t care about how I feel
I don´t feel it anymore
You don´t care about how I feel
I don´t feel it anymore

I don´t sleep
Anymore
I don´t eat
Anymore
I don´t live
Anymore
I don´t feel

That´s it ! Hope u like it. If u have any problems e-mail me.
System rullezzz!!!




Оставить комментарий