Аккорды, табулатуры и тексты песен

Rammstein - Sonne


Вступление и проигрыши где надо

G|---------------|
D|-0-0-6-0-6-5-0-|
A|-0-0-6-0-6-5-0-|
E|---------------|

G|---------------|
D|-0-0-6-0-6-5---|
A|-0-0-6-0-6-5---|
E|---------------|

G|---------------|
D|-0-0-6-0-6-5-0-|
A|-0-0-6-0-6-5-0-|
E|---------------|


G|-----------------|
D|-0-0-6-5-0-6-6-6-|
A|-0-0-6-5-0-6-6-6-|
E|-----------------|

И всё повторяется

Припев

G|-4--9--7--5-|
D|-4--9--7--5-|     (1)
A|-2--7--5--3-|
E|------------|

G|-4--9--7--5-|
D|-4--9--7--5-|     (2)
A|-2--7--5--3-|
E|------------|

G|-6--11--9--7-|
D|-6--11--9--7-|    (3)
A|-4--9---7--5-|
E|-------------|

G|-4--6--7--9-|
D|-4--6--7--9-|
A|-2--4--5--7-|     (4)
E|------------|

Попробуйте сыграть припев, когда играет синтезатор
и есть вокал в середине песни, должно сливаться с синтезатором,
только (3) играть играть вместо (4), но в припеве играть как есть.

Играть только на электрогитаре, иначе не поймёшь.




Оставить комментарий