Аккорды, табулатуры и тексты песен

Кирпичи - Деньги


Ну типа в куплете только бас. Писать его текст мне влом.
g---------------------
d---------------------
a-2---2-2-2-----------
e-----------3---3-2-2-

где-то с середины
g--------------------------------- 
d---------------------------------
a-2-2-2-2-2-2-2-2-----------------
e-----------------3-3-3-3-2-2-2-2-

под конец опять
g---------------------
d---------------------
a-2---2-2-2-----------
e-----------3---3-2-2-

Припев:
B5
Доллар меня кинул, он меня бил.
G5           F#5
Миром правит доллар, он меня кинул.
Доллар правит этим миром, он меня бил.
Миром правит доллар.




Оставить комментарий