Аккорды, табулатуры и тексты песен

Кино - Звезда по имени Солнце


Бастабы + текст
|----------|----------|----------|----------|----------|-------------|
|----------|----------|----------|----------|----------|-------------|
|----------|----------|----------|----------|----------|--0--0----0--|
|----------|----------|----------|----------|----------|-------------|

------------|-------------|------------|-------------|------------|
------------|-------------|------------|-------------|------------|
--0--0------|--0--0----0--|--0--0------|--0--0----0--|--0--0------|
------------|-------------|------------|-------------|------------|

-------------|------------|-------------|------------|-------------|
-------------|------------|-------------|------------|-------------|
--0--0----0--|--0--0------|--3--3----3--|--3--3------|--3--3----3--|
-------------|------------|-------------|------------|-------------|

------------|-------------|------------|-------------|------------|
------------|--0--0----0--|--0--0------|--0--0----0--|--0--0------|
--3--3------|-------------|------------|-------------|------------|
------------|-------------|------------|-------------|------------|

-------------|------------|-------------|------------|-------------|
-------------|------------|-------------|------------|-------------|
-------------|------------|-------------|------------|--0--0----0--|
--3--3----3--|--3--3------|--3--3----3--|--3--3------|-------------|

------------|-------------|------------|-------------|------------|
------------|-------------|------------|-------------|------------|
--0--0------|--0--0----0--|--0--0------|--3--3----3--|--3--3------|
------------|-------------|------------|-------------|------------|

-------------|------------|-------------|------------|-------------|
-------------|------------|--0--0----0--|--0--0------|--0--0----0--|
--3--3----3--|--3--3------|-------------|------------|-------------|
-------------|------------|-------------|------------|-------------|

------------|-------------|------------|-------------|------------|
--0--0------|-------------|------------|-------------|------------|
------------|-------------|------------|-------------|------------|
------------|--3--3----3--|--3--3------|--3--3----3--|--3--3------|

-------------|------------|-------------|------------|-------------|
--0--0----0--|--0--0------|--0--0----0--|--0--0------|-------------|
-------------|------------|-------------|------------|--0--0----0--|
-------------|------------|-------------|------------|-------------|

------------|-------------|------------|-------------|------------|
------------|-------------|------------|--0--0----0--|--0--0------|
--0--0------|--0--0----0--|--0--0------|-------------|------------|
------------|-------------|------------|-------------|------------|

-------------|------------|-------------|------------|-------------|
--0--0----0--|--0--0------|-------------|------------|-------------|
-------------|------------|--0--0----0--|--0--0------|--0--0----0--|
-------------|------------|-------------|------------|-------------|

------------|-------------|------------|-------------|------------|
------------|-------------|------------|-------------|------------|
--0--0------|--3--3----3--|--3--3------|--3--3----3--|--3--3------|
------------|-------------|------------|-------------|------------|

-------------|------------|-------------|------------|-------------|
--0--0----0--|--0--0------|--0--0----0--|--0--0------|-------------|
-------------|------------|-------------|------------|-------------|
-------------|------------|-------------|------------|--3--3----3--|

------------|-------------|------------|-------------|------------|
------------|-------------|------------|-------------|------------|
------------|-------------|------------|--0--0----0--|--0--0------|
--3--3------|--3--3----3--|--3--3------|-------------|------------|

-------------|------------|-------------|------------|-------------|
-------------|------------|-------------|------------|-------------|
--0--0----0--|--0--0------|--3--3----3--|--3--3------|--3--3----3--|
-------------|------------|-------------|------------|-------------|

------------|-------------|------------|-------------|------------|
------------|--0--0----0--|--0--0------|--0--0----0--|--0--0------|
--3--3------|-------------|------------|-------------|------------|
------------|-------------|------------|-------------|------------|

-------------|------------|-------------|------------|-------------|
-------------|------------|-------------|------------|--0--0----0--|
-------------|------------|-------------|------------|-------------|
--3--3----3--|--3--3------|--3--3----3--|--3--3------|-------------|

------------|-------------|------------|-------------|------------|
--0--0------|--0--0----0--|--0--0------|-------------|------------|
------------|-------------|------------|--0--0----0--|--0--0------|
------------|-------------|------------|-------------|------------|

-------------|------------|-------------|------------|-------------|
-------------|------------|--0--0----0--|--0--0------|--0--0----0--|
--0--0----0--|--0--0------|-------------|------------|-------------|
-------------|------------|-------------|------------|-------------|

------------|-------------|------------|-------------|------------|
--0--0------|-------------|------------|-------------|------------|
------------|--0--0----0--|--0--0------|--0--0----0--|--0--0------|
------------|-------------|------------|-------------|------------|

-------------|------------|-------------|------------|-------------|
--0--0----0--|--0--0------|--0--0----0--|--0--0------|-------------|
-------------|------------|-------------|------------|--0--0----0--|
-------------|------------|-------------|------------|-------------|

------------|-------------|------------|-------------|------------|
------------|-------------|------------|--0--0----0--|--0--0------|
--0--0------|--0--0----0--|--0--0------|-------------|------------|
------------|-------------|------------|-------------|------------|

-------------|------------|-------------|------------|-------------|
--0--0----0--|--0--0------|-------------|------------|-------------|
-------------|------------|--0--0----0--|--0--0------|--0--0----0--|
-------------|------------|-------------|------------|-------------|

------------|-------------|------------|-------------|------------|
------------|-------------|------------|-------------|------------|
--0--0------|--3--3----3--|--3--3------|--3--3----3--|--3--3------|
------------|-------------|------------|-------------|------------|

-------------|------------|-------------|------------|-------------|
--0--0----0--|--0--0------|--0--0----0--|--0--0------|-------------|
-------------|------------|-------------|------------|-------------|
-------------|------------|-------------|------------|--3--3----3--|

------------|-------------|------------|-------------|------------|
------------|-------------|------------|-------------|------------|
------------|-------------|------------|--0--0----0--|--0--0------|
--3--3------|--3--3----3--|--3--3------|-------------|------------|

-------------|------------|-------------|------------|-------------|
-------------|------------|-------------|------------|-------------|
--0--0----0--|--0--0------|--3--3----3--|--3--3------|--3--3----3--|
-------------|------------|-------------|------------|-------------|

------------|-------------|------------|-------------|------------|
------------|--0--0----0--|--0--0------|--0--0----0--|--0--0------|
--3--3------|-------------|------------|-------------|------------|
------------|-------------|------------|-------------|------------|

-------------|------------|-------------|------------|-------------|
-------------|------------|-------------|------------|--0--0----0--|
-------------|------------|-------------|------------|-------------|
--3--3----3--|--3--3------|--3--3----3--|--3--3------|-------------|

------------|-------------|------------|-------------|------------|
--0--0------|--0--0----0--|--0--0------|-------------|------------|
------------|-------------|------------|--0--0----0--|--0--0------|
------------|-------------|------------|-------------|------------|

-------------|------------|-------------|------------|-------------|
-------------|------------|--0--0----0--|--0--0------|--0--0----0--|
--0--0----0--|--0--0------|-------------|------------|-------------|
-------------|------------|-------------|------------|-------------|

------------|-------------|------------|-------------|------------|
--0--0------|-------------|------------|-------------|------------|
------------|--0--0----0--|--0--0------|--0--0----0--|--0--0------|
------------|-------------|------------|-------------|------------|

-------------|------------|-------------|------------|-----------||
--0--0----0--|--0--0------|--0--0----0--|--0--0------|-----------||
-------------|------------|-------------|------------|--0--------||
-------------|------------|-------------|------------|-----------||

Белый снег, серый лед,
На растрескавшейся земле.
Одеялом лоскутным на ней -
Город в дорожной петле.
А над городом плывут облака,
Закрывая небесный свет.
А над городом - желтый дым,
Городу две тысячи лет,
Прожитых под светом Звезды
По имени Солнце...

И две тысячи лет - война,
Война без особых причин.
Война - дело молодых,
Лекарство против морщин.
Красная, красная кровь -
Через час уже просто земля,
Через два на ней цветы и трава,
Через три она снова жива
И согрета лучами Звезды
По имени Солнце...

И мы знаем, что так было всегда,
Что Судьбою больше любим,
Кто живет по законам другим
И кому умирать молодым.
Он не помнит слово "да" и слово "нет",
Он не помнит ни чинов, ни имен.
И способен дотянуться до звезд,
Не считая, что это сон,
И упасть, опаленным Звездой
По имени Солнце...




Оставить комментарий