Аккорды, табулатуры и тексты песен

Звери - Капканы


              а вот и соло:

     G |--12-14-12-------------------------------|
     D |-----------9-10----10-9----9-13-13-14-16-|

     G |--12-14-12-------------------------14-11-|
     D |-----------9-10----10-9----9-13-13-------| 

     G |--12-14-12-------------------------------|
     D |-----------9-10----10-9----9-13-13-14-16-|

     G |--12-14-12-------------------------14-11-12--------------------|
     D |-----------9-10----10-9----9-13-13-----------------------------|




Оставить комментарий