Аккорды, табулатуры и тексты песен

Ария - Ворон


Tempo: slow (70 bpm)
Tuning: normal
INTRO:
(0:01 - 0:13)
RIFF 1: (Gtr.1 - clean tone)
Gtr.1E|--0-----------------------------------0--0--------|-0-----------------------------------0--0--------|
     H|--0-----------------------------------0--0--------|-0-----------------------------------0--0--------|
     G|--1-----------------------------------1--1--------|-1-----------------------------------1--1--------|
     D|--2-----------------------------------2--2--------|-2-----------------------------------2--2--------|
     A|--2-----------------------------------2--2--------|-1-----------------------------------1--1--------|
     E|--0-----------------------------------0--0--------|-0-----------------------------------0--0--------|
Gtr.1E|--------------------------------------------------|-------------------------------------------------|
     H|--0-----------------------0--------0--0-----0--0--|-0--------0-----0--0-----------------------------|
     G|--0-----------------------0--------0--0-----0--0--|-0--------0-----0--0-----------------------------|
     D|--2-----------------------2--------2--2-----2--2--|-2--------2-----2--2-----------------------------|
     A|--2-----------------------2-h4-----4--4-----4--4--|-4-p2-----2-----2--2-----------------------------|
     E|--0-----------------------0--------0--0-----0--0--|-0--------0-----0--0-----------------------------|
(0:13 - 0:26)
RIFF 1A: (Gtr.2 - distorted tone)
Gtr.1E|--0-----------------------------------0--0--------|-0-----------------------------------0--0--------|
     H|--0-----------------------------------0--0--------|-0-----------------------------------0--0--------|
     G|--1-----------------------------------1--1--------|-1-----------------------------------1--1--------|
     D|--2-----------------------------------2--2--------|-2-----------------------------------2--2--------|
     A|--2-----------------------------------2--2--------|-1-----------------------------------1--1--------|
     E|--0-----------------------------------0--0--------|-0-----------------------------------0--0--------|
      |                                                  |                                                 |
Gtr.2E|--------------------------------------------------|-------------------------------------------------|
     H|--------------------------------------------------|-------------------------------------------------|
     G|--------------------------------------------------|-------------------------------------------------|
     D|-----------------------------------5--5----5bend6-|----------------------------------5--5----5bend6-|
     A|-(1)/7-----------------------------------7--------|-7--------------------------------------7--------|
     E|--------------------------------------------------|-------------------------------------------------|
 
Gtr.1E|--0-----------------------------------0--0--------|-0-----------------------------------0--0--------|
     H|--0-----------------------------------0--0--------|-0-----------------------------------0--0--------|
     G|--1-----------------------------------1--1--------|-1-----------------------------------1--1--------|
     D|--2-----------------------------------2--2--------|-2-----------------------------------2--2--------|
     A|--2-----------------------------------2--2--------|-1-----------------------------------1--1--------|
     E|--0-----------------------------------0--0--------|-0-----------------------------------0--0--------|
      |                                                  |                                                 |
Gtr.2E|--------------------------------------------------|-------------------------------------------------|
     H|--------------------------------------------------|-------------------------------------------------|
     G|--------------------------------------------------|-------------------------------------------------|
     D|--------------------------5-----------------------|-------------------------------------------------|
     A|--7-----------------5--------7--------7--5--------|-------------------------------------------------|
     E|--------------------.--7--------------------7--6--|-5-----0-----------------------------------------|
(0:26 - 0:53)
VERSE 1: (w/riff 1)
VoiceE|----------------------------------------------------------------------------------------------------|
     H|----------------------------------------------------------------------------------------------------|
     G|----------------------------------------------------------------------------------------------------|
     D|--------2---2--2----4----6-----6------------6--6----6----4-----4-----6-----4------------------------|
     A|----------------------------------------------------------------------------------------------------|
     E|-----  Nochyu den´ ra - zor - van,         zatya - nu - la    ra  - nu  mgla   ---------------------|
VoiceE|----------------------------------------------------------------------------------------------------|
     H|----------------------------------------------------------------------------------------------------|
     G|---------------------------------------------------4------------------------------------------------|
     D|--------2---2---2--4----5----5---------------2--2---------2-----5-5-------2-------------------------|
     A|----------------------------------------------------------------------------------------------------|
     E|----  Smotrit chernyy  vo - ron             na menya     ru  - binom    glaz  ----------------------|
(0:53 - 1:07)
SOLO 1:
Gtr.2E|--------------------------------------------------|-------------------------------------------------|
     H|--8~~~~~~~----------------7~~~~~~~----7-----------|----------------------------------------------7--|
     G|-----------------------------------------9--7-----|-9-----------------------------------------9-----|
     D|--------------------------------------------------|----------------------------------------9--------|
     A|--------------------------------------------------|-------------------------------------------------|
     E|--------------------------------------------------|-------------------------------------------------|
Gtr.2E|--------------------------------------------------|-10bend12----------------------------------------|
     H|--8~~~~~~~----------7-----10----------8-----------|-------------------------------------------------|
     G|-----------------------9--------------------------|-------------------------------------------------|
     D|--------------------------------------------------|-------------------------------------------------|
     A|--------------------------------------------------|-------------------------------------------------|
     E|--------------------------------------------------|-------------------------------------------------|
(1:08 - 1:35)
VERSE 2:
              Iz  drugo - go  mi - ra             vo -ron ves - ti   mne  pri - nyos.
Gtr.2E|--------------------------------------------------|-------------------------------------------------|
     H|--------------------------------------------------|-------------------------------------------------|
     G|--------------------------------------------------|-------------------------------------------------|
     D|--------------------------------------------------|-------------------------------------------------|
     A|--2--------------------------------------7--------|-------------------------------------------------|
     E|--0-----------------------------------7-----------|-6-----------------------------------------------|
               Skoro s neba  hly - net             iz  kamney  tya - zhelyy  do - ozhd´. 
Gtr.2E|--------------------------------------------------|-------------------------------------------------|
     H|--------------------------------------------------|-------------------------------------------------|
     G|--------------------------------------------------|-------------------------------------------------|
     D|--------------------------------------------------|-------------------------------------------------|
     A|-----------------------------------------7--------|-------------------------------------------------|
     E|--3-----------------------------------7-----------|-0-----------------------------------0--6--------|
                                                                                               .
(1:35 - 2:05)
CHORUS:
VoiceE|---7----------------------5-------------------------------------------------------------------------|
     H|--------------------------------------8------------------5------------------------------------------|
     G|---------------------------------------------------7------------------------------------------------|
     D|----------------------------------------------------------------------------------------------------|
     A|----------------------------------------------------------------------------------------------------|
     E|- Mir                     ob     -   re     -    che  -  en      -----------------------------------|
      |                                                  |                                                 |
Gtr.2E|--------------------------------------------------|-------------------------------------------------|
     H|--------------------------------------------------|-------------------------------------------------|
     G|--------------------------------------------------|-------------------------------------------------|
     D|--5--------------------------7--------7-----7-----|-7-/9--------9-----7-/9--------9-----------------|
     A|--3--------------------------5--------5-----5-----|-5-/7--------7-----5-/7--------7-----7--6--5--4--|
     E|--------------------------0--------0--------------|-------0--0--------------0--0--------------------|
        Vy               -      ho     -    da            ne  -  et.
Gtr.2E|--------------------------------------------------|-------------------------------------------------|
     H|--------------------------------------------------|-------------------------------------------------|
     G|--------------------------------------------------|-------------------------------------------------|
     D|--5--------------------------7--------7-----7-----|-7-/9--------9-----7-/9--------9-----------------|
     A|--3--------------------------5--------5-----5-----|-5-/7--------7-----5-/7--------7-----7--6--5--4--|
     E|--------------------------0--------0--------------|-------0--0--------------0--0--------------------|
         vech           -       na    -     ya            noch´    
Gtr.2E|--------------------------------------------------|-------------------------------------------------|
     H|--------------------------------------------------|----------------------------------------5--------|
     G|--------------------------------------------------|-------------------------------------6-----6-----|
     D|--5--------------------------7--------7-----7-----|-7-/9--------9-----6-----------------------------|
     A|--3--------------------------5--------5-----5-----|-5-/7--------7-----4-----------------------------|
     E|--------------------------0--------0--------------|-------0--0--------------------------------------|
        tam,                   gde          byl          svet.
Gtr.2E|--------------------------------------------------|-------------------------------------------------|
     H|--------------------------------------------------|-------------------------------------------------|
     G|--------------------------------------------------|-------------------------------------------------|
     D|--5-----------------------4--4--------3--3--------|-2-----------------------------------------------|
     A|--3-----------------------2--2--------1--1--------|-0-----------------------5-----------4-----------|
     E|--------------------------------------------------|-------------------------3-----------2-----------|
Gtr.2E|--------------------------------------------------|
     H|--------------------------------------------------|
     G|--------------------------------------------------|
     D|--------------------------------------------------|
     A|--2-----------------------------------------------|
     E|--0-----------------------------------------------|
(2:05 - 2:32)
VERSE 3:
       Trizh -dy    vo - ron   krik - nul    -    potem - ne - li     ne  - be -  sa - a -a. 
Gtr.2E|--------------------------------------------------|-------------------------------------------------|
     H|--------------------------------------------------|-------------------------------------------------|
     G|--------------------------------------------------|-------------------------------------------------|
     D|--------2-----------2-----------2-----------2-----|-------4-----------4-----------4-----------4-----|
     A|-----2-----2-----2-----2-----2-----2-----2-----2--|----4-----4-----4-----4-----4-----4-----4-----4--|
     E|--0-----------0-----------0-----------0-----------|-2-----------2-----------2-----------2-----------|
         .  .  .  .  .  .  .  .  .  .  .  .  .  .  .  .    .  .  .  .  .  .  .  .  .  .  .  .  .  .  .  .
               Angel moy  hra - ni -  tel´        ot me -nya  ot  -   reksya     sa  -  am. 
Gtr.2E|--------------------------------------------------|-------------------------------------------------|
     H|--------------------------------------------------|-------------------------------------------------|
     G|--------------------------------------------------|-------------------------------------------------|
     D|--------5-----------5-----------7-----------7-----|-------2-----------2-----------2-----------------|
     A|-----5-----5-----5-----5-----7-----7-----7-----7--|----2-----2-----2-----2-----2-----2-----8--------|
     E|--3-----------3-----------5-----------5-----------|-0-----------0-----------0-----------0--6--------|
         .  .  .  .  .  .  .  .  .  .  .  .  .  .  .  .    .  .  .  .  .  .  .  .  .  .  .  .  .  >
(2:32 - 3:00) CHORUS
(3:13 - 3:40)
RIFF BEFORE SOLO:
Gtr.2E|--------------------------------------------------|-------------------------------------------------|
     H|--------------------------------------------------|-------------------------------------------------|
     G|-/9----------------------------------11bend12release11----------------------------------------------|
     D|--------------------------------------------------|-------------------------------------------------|
     A|--------------------------------------------------|-------------------------------------------------|
     E|--------------------------------------------------|-------------------------------------------------|
Gtr.2E|--------------------------------------------------|-------------------------------------------------|
     H|--------------------------------------------------|-------------------------------------------------|
     G|-/9----------------------------------11bend12release11----------------------------------------------|
     D|--------------------------------------------------|-------------------------------------------------|
     A|--------------------------------------------------|-------------------------------------------------|
     E|--------------------------------------------------|-------------------------------------------------|
Gtr.2E|--------------------------------------------------|-------------------------------------------------|
     H|-------------------------------------11bend12release11----------------------------------------------|
     G|-12-----------------------------------------------|-------------------------------------------------|
     D|--------------------------------------------------|-------------------------------------------------|
     A|--------------------------------------------------|-------------------------------------------------|
     E|--------------------------------------------------|-------------------------------------------------|
Gtr.2E|-12----------------------------------14bend15release14----------------------------------------------|
     H|--------------------------------------------------|-------------------------------------------------|
     G|--------------------------------------------------|-------------------------------------------------|
     D|--------------------------------------------------|-------------------------------------------------|
     A|--------------------------------------------------|-------------------------------------------------|
     E|--------------------------------------------------|-------------------------------------------------|
(3:40 - 4:05)
SOLO:
Lead E|--------------------------------------------------|-------------------------------------------------|
     H|--------------------------------------------------|-------------------------------------------------|
     G|-----??-------------------------------------------|-------------------------------------------------|
     D|--------------------------------------------------|-------------------------------------------------|
     A|--------------------------------------------------|-------------------------------------------------|
     E|--------------------------------------------------|-------------------------------------------------|
      |                                                  |                                                 |
Gtr.2E|--------------------------------------------------|-------------------------------------------------|
     H|--------------------------------------------------|-------------------------------------------------|
     G|--------------------------------------------------|-------------------------------------------------|
     D|--------------------------------------------------|-------------------------------------------------|
     A|--------------------------------------------------|-4--2--4--2--4--2--4--4-----2--4--2--4-----2--4--|
     E|--5--3--5--3--5--3--5--5-----3--5--3--5--0--3--5--|----------------------------------------4--------|
 
Lead E|--------------------------------------------------|-9----/11----11b12----????-----------------------|
     H|--7--5--5h7h8p7p5---5h7h8p7p5---5h7h8p7p5---5h7h8~~~~~~~~---|-------------------------------------------------|
     G|------------------8-----------8-----------8----------------|-------------------------------------------------|
     D|--------------------------------------------------|-------------------------------------------------|
     A|--------------------------------------------------|-------------------------------------------------|
     E|--------------------------------------------------|-------------------------------------------------|
      |                                                  |                                                 |
Gtr.2E|--------------------------------------------------|-------------------------------------------------|
     H|--------------------------------------------------|-------------------------------------------------|
     G|--------------------------------------------------|-------------------------------------------------|
     D|--------------------------------------------------|-------------------------------------------------|
     A|--------------------------------------------------|-4--2--4--2--4--2--4--4-----2--4--2--4-----2--4--|
     E|--5--3--5--3--5--3--5--5-----3--5--3--5--0--3--5--|----------------------------------------4--------|
 
Lead E|-15-12--------------15-12----------12-15-15b18----|-17p15p12------------------------------------------|
     H|-------13--------13-------13----13----------------|-------15--15bfrp12------------------------------|
     G|----------16p12-12-------------12-------------------|-------------------14--14bfrp12---12~~~~~~-------|
     D|--------------------------------------------------|-------------------------------14----------------|
     A|--------------------------------------------------|-------------------------------------------------|
     E|--------------------------------------------------|-------------------------------------------------|
      |                                                  |                                                 |
Gtr.2E|--------------------------------------------------|-------------------------------------------------|
     H|--------------------------------------------------|-------------------------------------------------|
     G|--------------------------------------------------|-------------------------------------------------|
     D|--------------------------------------------------|-------------------------------------------------|
     A|--3--2--3--2--3--2--3--3-----2--3--2--3-----2--3--|-7--5--7--5--7--5--7--7-----5--7--5--7-----5--7--|
     E|-----------------------------------------3--------|----------------------------------------7--------|
 
Lead E|---------------------------------------------12---------------|-------------------------------------------------|
     H|----------------------------12-13-15-12-13-15-----------------|-------------------------------------------------|
     G|------------------------11----------14--------------------------??------|-------------------------------------------------|
     D|------------12-14--12-14-------------------------------------|-------------------------------------------------|
     A|----12-14-15-----15------------------------------------------|-------------------------------------------------|
     E|--------------------------------------------------|-------------------------------------------------|
      |                                                  |                                                 |
Gtr.2E|--------------------------------------------------|-------------------------------------------------|
     H|--------------------------------------------------|-------------------------------------------------|
     G|--------------------------------------------------|-------------------------------------------------|
     D|--------------------------------------------------|-------------------------------------------------|
     A|--3--2--3--2--3--2--3--3-----2--3--2--3-----2--3--|-2--2--2--2--2--2--2--2--2--2--2--2--2--2--2--2--|
     E|-----------------------------------------3--------|-------------------------------------------------|
(4:05 - 4:31)
BRIDGE:
VoiceE|----------------------------------------------------------------------------------------------------|
     H|----------------------------------------------------------------------------------------------------|
     G|----------------------------------------------------------------------------------------------------|
     D|----5---------------4---4--2---2--------------------6--------------4-----4------2-------------------|
     A|----------------------------------------------------------------------------------------------------|
     E| Vsyo,           chto  bu -u -det,                 ya             za  - bu  -  du   ----------------|
      |                                                  |                                                 |
Gtr.2E|--------------------------------------------------|-------------------------------------------------|
     H|--------------------------------------------------|-------------------------------------------------|
     G|--------------------------------------------------|-------------------------------------------------|
     D|--------------------------------------------------|-------------------------------------------------|
     A|--------------------------------------------------|-4--2--4--2--4--2--4--4-----2--4--2--4-----2--4--|
     E|--5--3--5--3--5--3--5--5-----3--5--3--5--0--3--5--|----------------------------------------4--------|
 
VoiceE|----------------------------------------------------------------------------------------------------|
     H|----------------------------------------------------------------------------------------------------|
     G|----------------------------------------------------------------------------------------------------|
     D|---------------4----2----6------6-----------2-------------------------------------------------------|
     A|------------------------------------------------6---4-----------------------------------------------|
     E|------------   E - tot  son   chu    -    zho - o - oy                   ---------------------------|
      |                                                  |                                                 |
Gtr.2E|--------------------------------------------------|-------------------------------------------------|
     H|--------------------------------------------------|-------------------------------------------------|
     G|--------------------------------------------------|-------------------------------------------------|
     D|--------------------------------------------------|-4-/6--------6-/8--------8-/9--------9-/12-------|
     A|-----------------------------------------------2--|-2-/4--4--4--4-/6--6--6--6-/7--7--7--7-/10-------|
     E|--2--0--2--0--2--0--2--4-----2--4--2--4--2--4-----|-------------------------------------------------|
 
        Tol´      -      ko   sno -  va                   kru      -    zhit   vo  - ron 
Gtr.2E|--------------------------------------------------|-------------------------------------------------|
     H|--------------------------------------------------|-------------------------------------------------|
     G|--------------------------------------------------|-------------------------------------------------|
     D|--------------------------------------------------|-------------------------------------------------|
     A|--------------------------------------------------|-4--2--4--2--4--2--4--4-----2--4--2--4-----2--4--|
     E|--5--3--5--3--5--3--5--5-----3--5--3--5--0--3--5--|----------------------------------------4--------|
        nad   zem    -   lyo  -  o  - yu,                 na  - do      mno     -     yu              
Gtr.2E|--------------------------------------------------|-------------------------------------------------|
     H|--------------------------------------------------|-------------------------------------------------|
     G|--------------------------------------------------|-------------------------------------------------|
     D|--------------------------------------------------|-------------------------------------------------|
     A|--------------------------------------------------|-2--2--2--2--2--2--2--2--2--2--2--2--7--6--5--4--|
     E|--2--0--2--0--2--0--2--2-----0--2--0--2--0--2--0--|-------------------------------------------------|
(4:31 - 5:25) CHORUS (*2 times)
then finish with riff 1.




Оставить комментарий