Аккорды, табулатуры и тексты песен

Zdob Si Zdub - Zdobi Bateti Tare


(если по русски то "Zdubi играют весело и громко")
Подобрала только табы, так как в песне всего два аккорда)))
    
        E
E--5-4-5--7--5-4-------|--7--5-4-----4-----|
B----------------6-5---|---------6-5-------|
G----------------------|-------------------|
D----------------------|-------------------|
A----------------------|-------------------|
E----------------------|-------------------|

E-7--5-4-------------|--7--5-4-----4-----|
B----------6--5------|---------6-5-------|
G-----------4--------|-------------------|
D--------------------|-------------------|
A--------------------|-------------------|
E--------------------|-------------------|

E-4-5--7--5-4-------|--7--5-4-----4------|
B-------------6-5---|---------6-5--------|
G-------------------|--------------------|
D-------------------|--------------------|
A-------------------|--------------------|
E-------------------|--------------------|

    Dm
E-7--5-4-------------|-7--5-4-5------------|
B---------6-5--------|----------6-5--------|
G-------------7------|---------------------|
D--------------------|---------------------|
A--------------------|---------------------|
E--------------------|---------------------|

Молдавский не знаю, так что текст обломись... хотя по-моему там и так все предельно ясно.
А вообще, по-моему, очень заводная песенка.




Оставить комментарий