Аккорды, табулатуры и тексты песен

Dark Tranquillity - The Gallery


Tune to Eb (Eb, Ab, Db, Gb, Bb, Eb,)

*I only did a couple of lines from the beginning....if anyone wants me
 to finish it, or re-edit this one, e-mail me at  lordyoda@wam.umd.edu

Riff A
|---------------------------------------------|
|--------------------------t--p-p------t-h----|
|-(4)/11~----------------16-11-9-7---16-9-11~-|
|---------------------------------------------|
|---------------------------------------------|
|---------------------------------------------|
|                                             |
|---------------------------------------------|
|----3---3------3---3------2---2------2---2---|
|------4----------4----------4----------4-----|
|--4----------4----------4----------4---------|
|---------------------------------------------|
|---------------------------------------------|


|---------------------------------------------|
|---------------------------------------------|
|-----------------------------------6--7--9---|
|------------------------------7--9-----------|
|---------------------------------------------|
|---------------------------------------------|
|                                             |
|---------------------------------------------|
|----3---3------3---3------2---2----3---5-----|
|------4----------4------2---4--------4---4---|
|--4----------4-------------------------------|
|---------------------------------------------|
|---------------------------------------------|


|---------------------------------------------|
|---------------------------------------------|
|-11~------------------9-/11~-----------------|
|-----------------9-12------------------------|
|---------------------------------------------|
|---------------------------------------------|
|                                             |
|---------------------------------------------|
|----3---3------3---3------2---2------2---2---|
|------4----------4----------4----------4-----|
|--4----------4----------4----------4---------|
|---------------------------------------------|
|---------------------------------------------|


|---------------------------------------------|
|-12---------------12*---7*-------------------|
|---------------------------------------------|
|---------------------------------------------|
|---------------------------------------------|
|---------------------------------------------|
|                                             |
|---------------------------------------------|
|----3---3------3---3------2---2----3---5-----|
|------4----------4------2---4--------4---4---|
|--4----------4-------------------------------|
|---------------------------------------------|
|---------------------------------------------|
*harmonic                         (End Riff A)


Riff B
|-------------------------------------------------------------------------|
|-------------------7--------7-5------------------------------------------|
|-7--4--6-7-4-6--7---6-7--7-----6-----7-9--------------------------------|
|-7--4--4-4-4-4--4---4-4----------4-4------------------------------------|
|-5--2----------------------------.-.------------------------------------|
|-------------------------------------------------------------------------|


Riff C
|------------------------------------------h-p--------------------------|
|-------------h-----------------7-7---7-9-7-9-7----------7----h-p-------|
|--7-6-666~--6-7--7-6-666---7-9-----------------9----9-----9-7-9-7------|
|-----------------------------------------------------------------------|
|-----------------------------------------------------------------------|
|-----------------------------------------------------------------------|



Riff D (Acoustic)               
|---------------7---9---10--9-7-9-10-/12~--9~--------7-10-9~--|
|------7----10--------------------------------12-10----------|
|-------------------------------------------------------------|
|-------------------------------------------------------------|
|-------------------------------------------------------------|
|-------------------------------------------------------------|
|                                                             |
|------------------------7-----------------p------------------|
|--7---7-----7--9-/10------10-----10-9/109-7-----------------|
|----9--------------------------------------------------------|
|-------------------------------------------------------------|
|-------------------------------------------------------------|
|-------------------------------------------------------------|


Riff E
|-------------------------------------------------------------------------|
|-------------------------------------------------------------------------|
|-------------------------------------------------------------------------|
|-------------------------------------------------------------------------|
|-------------------------------------------------------------------------|
|-------------------------------------------------------------------------|


Riff F
|-4------5------4---------------------------------------------------------|
|-5------6------5---------------------------------------------------------|
|-6------7------6---------------------------------------------------------|
|-6------7------6----------6----------------------------------------------|
|-4------5------4--------4------------------------------------------------|
|-4-4444-5-5555-4-4444-4--------------------------------------------------|
                       . . .

Regards, Kantele




Оставить комментарий