Аккорды, табулатуры и тексты песен

Разные песни - Гимн России


Куплет:
Россия - священная наша держава! Россия - любимая наша страна!
1---------------------------------------------------
2----1----0-----------------------------------0-1-3-
3-0----0-2-------2-0---0-----------------0--2-------
4-----------2-2------3--------0-0--2-3-3------------
5------------------------3-3------------------------
6---------------------------------------------------
Могучая воля, великая слава - Твое достоянье на все времена.
1---0------------------------------------------------
2---1-3-1-3------1-0---------------------------------
3-0---0-2-4-4--0-2---2--0-------2-0----0------1-0---0
4------------------2-4-(0)-2--2------3------------2--
5----------------------------------------3-3--0-2-4--
6----------------------------------------------------

Припев:
Славься, Отечество наше свободное
1-0------------------------------------
2-1--3-1-0-1-3-------1--0--------------
3----4-2-0-2-4--0-0--2--0-2-0-2-0------
4-------------------------4-2-4-0--2-2-
5--------------------------------------
6--------------------------------------
Братских народов союз вековой,
1--------------------------------------
2-1---0-1---0-1---1-1------------------
3-2-2-0-2-2-0-2-2-2--------------------
4---3-----3-----3---3------------------
5--------------------------------------
6--------------------------------------
Предками данная мудрость народная,
1-1--0-------0-------------------------
2----0-1-1-3-1--1-1--3--1--0-0-0-1-----
3-2--0---2-2---------2--1----4-1-2--2-2
4-0------------------3--2--------------
5--------------------------------------
6--------------------------------------
Славься страна! Мы гордимся тобой
1--------------------------------------
2-3-0---------1-0----------------------
3-2-0-2-0---------2-0-----0------------
4-----3-------0-2-4--------------------
5---------3-3--------------------------
6--------------------------------------

От южных морей до полярного края
Раскинулись наши леса и поля.
Одна ты на свете! Одна ты такая!
Хранимая богом родная земля.

Припев.

Широкий простор для мечты и для жизни,
Грядущее нам открывают года.
Ним силу дает наша верность отчизне.
Так было, так есть и так будет всегда 

                                         P.S. Позже, может быть, скину для второй гитары




Оставить комментарий