Аккорды, табулатуры и тексты песен

RadioHead - You and Whose Army?


Альбом: Amnesiac


1. -играем в первый раз
2. -во второй
3. -соотвественно в третий

Куплет:
                                     x2
E---6---4---4---2---2-------0---4------ | -----0------------- |
B---7---4---5---2---3---0---2-2-5------ | -0---2---5-------5- |
G---8-8-5-5-6-6-3---4-4-1---2-2-6-6---- | -1-1-2-2---6-----6- |
D---8-8-6-6-6-6-4-4-4-4-2-2-2-2-6-6---- | -2-2-2-2-----6---6- |
A---6---6-6-4---4---2---2-2-0---4-4---- | -2-2-0---------4-4- |
E-------4-------2-------0-------------- | -0---------------4- |

                                     x2
E---6---4---4---2---2-------0---4------ | -----0-----0---4--- |
B---7---4---5---2---3---0---2-2-5------ | -0---2-----2---5-5- |
G---8-8-5-5-6-6-3---4-4-1---2-2-6-6---- | -1-1-2-2---2-2-6-6- |
D---8-8-6-6-6-6-4-4-4-4-2-2-2-2-6-6---- | -2-2-2-2---2-2-6-6- |
A---6---6-6-4---4---2---2-2-0---4-4---- | -2-2-0---0-----4--- |
E-------4-------2-------0-------------- | -0----------------- |

Играть 3 раза          _______________1. 2.____   ____________3.______
                       |                      |   |                  |
E---6---4---6------- | ------------------4---4- | ---4--------------- |
B---7---4---7---4--- | ---5-------5------5---5- | ---5-----5-------5- |
G---8-8-5-5-8-8-5-5- | ---6-----6---6----6---6- | -6-6---6---6-6-6-6- |
D---8-8-6-6-8-8-6-6- | ---6---6--------6------- | -6---6-------6-6--- |
A-------6-6-----6-6- | -4-4-2-4------4-----4--- | -4-----------4----- |
E-------4-------4--- | ------------------------ | -------------4----- |

Проигрыш:
C#  E  A G#
C#  B  A G#

D#m     G#m C#m  F#m
   Come on, come on
Hm      E       A           C#m
   You think you drive me crazy
D#m     G#m C#m  F#m
   Come on, come on
Hm      E       A     C#m
   You and whose army?
E       A             C#m  
   You and your cronies

Come on, come on
Holy Roman empire
Come on if you think
Come on if you think
You can take us on
You can take us on

You and whose army?
You and your cronies

You forget so easily
You ought to know
You ought to know
I´m so sad
I´m so sad
You ought to know
You ought to know
I´m so sad
I´m so sad
I´m so sad




Оставить комментарий