Аккорды, табулатуры и тексты песен

Stevie Wonder - I Just Called To Say I Love You


Tabs:
Tab1
E---------------------------------------------------0--------------------------------------
B------0--1--1-----0--1--1--------0--1--1--0--1--3-----3-1--0------------------------------
G---0-----------0-------------0--------------------------------2---------------------------
D------------------------------------------------------------------------------------------
A------------------------------------------------------------------------------------------
E------------------------------------------------------------------------------------------

Tab2
E-----------------------------------------------------0------------------------------------
B-------2--3--3--2------2--2---------2--3--3--1-1--3-----3--1--0-(1)-----------------------
G--2-----------------2--------2---2-------------------------------0------------------------
D------------------------------------------------------------------------------------------
A------------------------------------------------------------------------------------------
E------------------------------------------------------------------------------------------

Chorus
E---------------------------------------------------------------------0--------------------
B-1-1-----1-0------0-1---1-1----1-0-1-0------------1-1----1-0------3----3--1---------------
G------2--------0-------------2----------2-0-2----------2------0---------------------------
D----------------------------------------------1-------------------------------------------
A------------------------------------------------------------------------------------------
E------------------------------------------------------------------------------------------

E------------------------------------------------------------------------------------------
B--1--1------------------------------------------------------------------------------------
G--------2--0--3--0-2--3--2--0-------------------------------------------------------------
D-------------------------------3----------------------------------------------------------
A------------------------------------------------------------------------------------------
E------------------------------------------------------------------------------------------

Bass:
Бас нужно играть в паузах между запевками в соответствии с аккордами. В момент запевок - ad libitum (т.е. как хотите)

   C         D7 or Dm (Dm7)   G              Am            F
G---0--0---|-----2---2-----|-----0---0----|-------------|----------|------------------------
D----------|-0---------0---|--0---------0-|-------------|---3--3---|------------------------
A-3------3-|---------------|--------------|--0--------0-|-0-----0--|------------------------
E----------|---------------|--------------|-----0--0----|----------|------------------------


               C           C   C7
No New Year´s day to celebrate,
    С7        С             С              Dm
No chocolate covered candy hearts to give away,
Dm          Dm7                Dm7
No first of spring, no song to sing,
Dm       Dm7                 G        C
In fact, here´s just another ordinary day...

          C        C7       C
No April rain, no flowers bloom
   C7                   C               Dm
No wedding Saturday within the month of June,
Dm          Dm7                Dm
But what it is, is something true
Dm       Dm7                 G                  C
Made up of these three words that I must say to you.

Припев (2 раза):
C      Dm        G     C
I just called to say I love you!!!
C      Dm        G7             Am
I just called to say how much I care...
C      Dm        G     C
I just called to say I love you!!!
      Dm               G7           C
And I mean it from the bottom of my heart!

(Аккорды - так же)

No summer´s high, no warm July,
No harvest moon to light one tender August night,
No autumn breese, no falling leaves,
Not even time for birds to fly to Southern skies...

No Libra Sun, no Halloween...
No giving thanks to world the Christmas joy you bring,
But what it is though old so new
To feel your heart like no three words could ever do

Припев (произвольное число раз)

Примечание:

В Tab2 есть цифра 1 над нулем в скобках. 
Это означает, что в первой части каждого куплета нужно ударить по открытой струне Соль, 
а во второй - по Си, прижатой на первом ладу.




Оставить комментарий