Аккорды, табулатуры и тексты песен

Beatles - Yesterday


Intro:
	E---3-3-3--3-3-3-3----3-3-3--3-3-3-3---
	B---1-1-1--1-1-1-1----1-1-1--1-1-1-1---
	G---0-0-0--0-0-1-0----0-0-0--0-0-0-0---
	D--------------------------------------
	A-3--------3--------3--------3---------
	E--------------------------------------

Part 1:

	E-------.--------------.-0-2-4-5-7-8-7---5---5---.-------.--
	B-3-1-1-.-------------0.-----3---------5---5---5-.--1---1.--
	G-------.-0---0-------2.-----4---------5---5---5-.--2---2.--
	D-------.---2-----2----.-------------------------.-------.--
	A-3-----.-------3---2--.-------------0-------0---.-------.--
	E-------.--------------.-----0-------------------.3---1--.--
	
	E-5-5-3-1-0---1---0---0-----------0---------------1-0---
	B-----------3-------------3---1-----1-3-------1---------
	G-5-5-4-2-0-----0---0---0---0---2-------2---2---2-------
	D-3---------3-----------------------------4---3---------
	A-------------3-------3---2---0---------------------3---
	E-------------------------------------------------------
	
	E-.-------------.-----------------------------------------
	B-.1-1-1---1-1-1.-----------------------------------------
	G-.0-0-0---0-0-0.-----------------------------------------
	D-.-------------.-----------------------------------------
	A-.------3------.-----------------------------------------
	E-.-------------.-----------------------------------------

Part 1

Part 2:

	E-0-.-----.--0-.-----.----5-7-8-7-5-7-.---.-5-3-5-0-.-------------.--
	B---.3---3.----.3---3.----5-----------.6-6.---------.1-1-1---1-1-1.--
	G---.--2--.----.--1--.----5-7---7-5---.7-7.-5-4-5---.0-0-0---0-0-0.--
	D---.-----.----.-----.------5-7-----0-.---.---------.-------------.--
	A-2-.-----.----.-----.----0---8-------.---.-------3-.------3------.--
	E---.-----.--0-.-----.----------------.---.---------.-------------.--

	E-0-.-----.--0-.-----.---5-7-8-7-5-7-.---.-5-3-7-8-.---------------.-
	B---.3---3.----.3---3.---5-----------.6-6.---------.8-8-8----------.-
	G---.--2--.----.--1--.---5-7---7-5---.7-7.-5-4-7---.9-9-9-10-10-9-9.-
	D---.-----.----.-----.-----5-7-----0-.---.---------.---------------.-
	A-2-.-----.----.-----.---0---8-------.---.---------.---------------.-
	E---.------.-0-.-----.---------------.---.-------8-.---------------.-

Part 1
Part 1
Part 2

 завершить можно:
	
	      
	E-----0---------------1-0---------
	B-1-----1-3-------1-----1---------
	G---2-------2---2---2---0---------
	D-------------4---3-----2---------
	A-0---------------------3---------
	E---------------------------------




Оставить комментарий